ISO-10303-21;
HEADER;
FILE_DESCRIPTION (( 'STEP AP203' ),
    '1' );
FILE_NAME ('Q-AZHWP-25.4-355-M.STEP',
    '2020-12-22T09:09:58',
    ( '' ),
    ( '' ),
    'SwSTEP 2.0',
    'SolidWorks 2020',
    '' );
FILE_SCHEMA (( 'CONFIG_CONTROL_DESIGN' ));
ENDSEC;

DATA;
#1 = LOCAL_TIME ( 17, 9, 58.00000000000000000, #91 ) ;
#2 = CARTESIAN_POINT ( 'NONE',  ( -1.614212418857619014, 0.000000000000000000, 0.000000000000000000 ) ) ;
#3 = CARTESIAN_POINT ( 'NONE',  ( -3.000000000000000000, 1.836970198721029589E-15, -15.00000000000000000 ) ) ;
#4 = PLANE ( 'NONE',  #149 ) ;
#5 =( NAMED_UNIT ( * ) SI_UNIT ( $, .STERADIAN. ) SOLID_ANGLE_UNIT ( ) );
#6 = PRODUCT_RELATED_PRODUCT_CATEGORY ( 'detail', '', ( #64 ) ) ;
#7 = PERSON_AND_ORGANIZATION ( #103, #29 ) ;
#8 = CALENDAR_DATE ( 2020, 22, 12 ) ;
#9 = CIRCLE ( 'NONE', #41, 15.00000000000000000 ) ;
#10 = CC_DESIGN_PERSON_AND_ORGANIZATION_ASSIGNMENT ( #85, #137, ( #44 ) ) ;
#11 = APPROVAL_DATE_TIME ( #71, #72 ) ;
#12 = ADVANCED_FACE ( 'NONE', ( #147 ), #110, .F. ) ;
#13 = AXIS2_PLACEMENT_3D ( 'NONE', #119, #100, #152 ) ;
#14 = APPROVAL_PERSON_ORGANIZATION ( #7, #59, #87 ) ;
#15 = DIRECTION ( 'NONE',  ( -1.000000000000000000, -0.000000000000000000, -0.000000000000000000 ) ) ;
#16 = DIRECTION ( 'NONE',  ( 0.000000000000000000, 0.000000000000000000, 1.000000000000000000 ) ) ;
#17 = EDGE_CURVE ( 'NONE', #24, #37, #39, .T. ) ;
#18 = CARTESIAN_POINT ( 'NONE',  ( -1.614212418857619014, 0.000000000000000000, 0.000000000000000000 ) ) ;
#19 = CARTESIAN_POINT ( 'NONE',  ( -1.614212418857619014, 1.836970198721029589E-15, -15.00000000000000000 ) ) ;
#20 = CC_DESIGN_PERSON_AND_ORGANIZATION_ASSIGNMENT ( #65, #128, ( #76 ) ) ;
#21 = APPLICATION_CONTEXT ( 'configuration controlled 3d designs of mechanical parts and assemblies' ) ;
#22 = ORIENTED_EDGE ( 'NONE', *, *, #123, .T. ) ;
#23 = CC_DESIGN_APPROVAL ( #59, ( #76 ) ) ;
#24 = VERTEX_POINT ( 'NONE', #167 ) ;
#25 = CARTESIAN_POINT ( 'NONE',  ( 3.000000000000000888, 12.69999999999999929, 0.000000000000000000 ) ) ;
#26 = DIRECTION ( 'NONE',  ( 0.000000000000000000, 0.000000000000000000, 1.000000000000000000 ) ) ;
#27 = DIRECTION ( 'NONE',  ( -1.000000000000000000, -0.000000000000000000, -0.000000000000000000 ) ) ;
#28 = APPLICATION_PROTOCOL_DEFINITION ( 'international standard', 'config_control_design', 1994, #21 ) ;
#29 = ORGANIZATION ( 'UNSPECIFIED', 'UNSPECIFIED', '' ) ;
#30 = EDGE_CURVE ( 'NONE', #24, #162, #131, .T. ) ;
#31 = CALENDAR_DATE ( 2020, 22, 12 ) ;
#32 = COORDINATED_UNIVERSAL_TIME_OFFSET ( 8, 0, .AHEAD. ) ;
#33 = SECURITY_CLASSIFICATION ( '', '', #90 ) ;
#34 = CC_DESIGN_PERSON_AND_ORGANIZATION_ASSIGNMENT ( #102, #156, ( #44 ) ) ;
#35 = AXIS2_PLACEMENT_3D ( 'NONE', #133, #111, #166 ) ;
#36 = ORIENTED_EDGE ( 'NONE', *, *, #123, .F. ) ;
#37 = VERTEX_POINT ( 'NONE', #124 ) ;
#38 = FACE_OUTER_BOUND ( 'NONE', #49, .T. ) ;
#39 = LINE ( 'NONE', #99, #48 ) ;
#40 = CARTESIAN_POINT ( 'NONE',  ( -3.000000000000000000, 0.000000000000000000, 0.000000000000000000 ) ) ;
#41 = AXIS2_PLACEMENT_3D ( 'NONE', #148, #15, #56 ) ;
#42 = COORDINATED_UNIVERSAL_TIME_OFFSET ( 8, 0, .AHEAD. ) ;
#43 = ADVANCED_FACE ( 'NONE', ( #146 ), #135, .T. ) ;
#44 = PRODUCT_DEFINITION_FORMATION_WITH_SPECIFIED_SOURCE ( 'ANY', '', #64, .NOT_KNOWN. ) ;
#45 =( NAMED_UNIT ( * ) PLANE_ANGLE_UNIT ( ) SI_UNIT ( $, .RADIAN. ) );
#46 = UNCERTAINTY_MEASURE_WITH_UNIT (LENGTH_MEASURE( 1.000000000000000082E-05 ), #132, 'distance_accuracy_value', 'NONE');
#47 = PERSON_AND_ORGANIZATION ( #103, #29 ) ;
#48 = VECTOR ( 'NONE', #151, 1000.000000000000000 ) ;
#49 = EDGE_LOOP ( 'NONE', ( #122, #109, #36, #92 ) ) ;
#50 = ORIENTED_EDGE ( 'NONE', *, *, #17, .T. ) ;
#51 = EDGE_CURVE ( 'NONE', #162, #24, #170, .T. ) ;
#52 = EDGE_LOOP ( 'NONE', ( #22, #125 ) ) ;
#53 = CIRCLE ( 'NONE', #168, 15.00000000000000000 ) ;
#54 = CC_DESIGN_APPROVAL ( #95, ( #44 ) ) ;
#55 = DIRECTION ( 'NONE',  ( -1.000000000000000000, -0.000000000000000000, -0.000000000000000000 ) ) ;
#56 = DIRECTION ( 'NONE',  ( 0.000000000000000000, 0.000000000000000000, 1.000000000000000000 ) ) ;
#57 = CARTESIAN_POINT ( 'NONE',  ( -3.000000000000000888, 12.69999999999999929, 0.000000000000000000 ) ) ;
#58 = MANIFOLD_SOLID_BREP ( 'Ðý×', #97 ) ;
#59 = APPROVAL ( #62, 'UNSPECIFIED' ) ;
#60 = DIRECTION ( 'NONE',  ( 0.000000000000000000, 0.000000000000000000, -1.000000000000000000 ) ) ;
#61 = CC_DESIGN_APPROVAL ( #72, ( #33 ) ) ;
#62 = APPROVAL_STATUS ( 'not_yet_approved' ) ;
#63 = ADVANCED_FACE ( 'NONE', ( #38 ), #94, .T. ) ;
#64 = PRODUCT ( 'Q-AZHWP-25.4-355-M', 'Q-AZHWP-25.4-355-M', '', ( #138 ) ) ;
#65 = PERSON_AND_ORGANIZATION ( #103, #29 ) ;
#66 = LOCAL_TIME ( 17, 9, 58.00000000000000000, #67 ) ;
#67 = COORDINATED_UNIVERSAL_TIME_OFFSET ( 8, 0, .AHEAD. ) ;
#68 = APPROVAL_STATUS ( 'not_yet_approved' ) ;
#69 = EDGE_CURVE ( 'NONE', #162, #106, #74, .T. ) ;
#70 = CALENDAR_DATE ( 2020, 22, 12 ) ;
#71 = DATE_AND_TIME ( #141, #1 ) ;
#72 = APPROVAL ( #130, 'UNSPECIFIED' ) ;
#73 = DIRECTION ( 'NONE',  ( -0.000000000000000000, 0.000000000000000000, 1.000000000000000000 ) ) ;
#74 = LINE ( 'NONE', #19, #172 ) ;
#75 = FACE_OUTER_BOUND ( 'NONE', #52, .T. ) ;
#76 = PRODUCT_DEFINITION ( 'UNKNOWN', '', #44, #126 ) ;
#77 = PERSON_AND_ORGANIZATION ( #103, #29 ) ;
#78 = DATE_AND_TIME ( #8, #66 ) ;
#79 = DATE_AND_TIME ( #153, #117 ) ;
#80 = APPROVAL_PERSON_ORGANIZATION ( #105, #72, #173 ) ;
#81 = EDGE_LOOP ( 'NONE', ( #108, #93, #50, #121 ) ) ;
#82 = DIRECTION ( 'NONE',  ( -1.000000000000000000, -0.000000000000000000, -0.000000000000000000 ) ) ;
#83 = DIRECTION ( 'NONE',  ( 0.000000000000000000, 0.000000000000000000, 1.000000000000000000 ) ) ;
#84 = CC_DESIGN_PERSON_AND_ORGANIZATION_ASSIGNMENT ( #47, #120, ( #33 ) ) ;
#85 = PERSON_AND_ORGANIZATION ( #103, #29 ) ;
#86 = APPROVAL_DATE_TIME ( #79, #59 ) ;
#87 = APPROVAL_ROLE ( '' ) ;
#88 = DATE_AND_TIME ( #31, #160 ) ;
#89 = LOCAL_TIME ( 17, 9, 58.00000000000000000, #32 ) ;
#90 = SECURITY_CLASSIFICATION_LEVEL ( 'unclassified' ) ;
#91 = COORDINATED_UNIVERSAL_TIME_OFFSET ( 8, 0, .AHEAD. ) ;
#92 = ORIENTED_EDGE ( 'NONE', *, *, #17, .F. ) ;
#93 = ORIENTED_EDGE ( 'NONE', *, *, #51, .T. ) ;
#94 = CYLINDRICAL_SURFACE ( 'NONE', #107, 15.00000000000000000 ) ;
#95 = APPROVAL ( #68, 'UNSPECIFIED' ) ;
#96 = DIRECTION ( 'NONE',  ( -1.000000000000000000, 0.000000000000000000, -0.000000000000000000 ) ) ;
#97 = CLOSED_SHELL ( 'NONE', ( #63, #12, #43, #142 ) ) ;
#98 = CC_DESIGN_SECURITY_CLASSIFICATION ( #33, ( #44 ) ) ;
#99 = CARTESIAN_POINT ( 'NONE',  ( -1.614212418857619014, 0.000000000000000000, 15.00000000000000000 ) ) ;
#100 = DIRECTION ( 'NONE',  ( 0.000000000000000000, 0.000000000000000000, 1.000000000000000000 ) ) ;
#101 = PERSON_AND_ORGANIZATION ( #103, #29 ) ;
#102 = PERSON_AND_ORGANIZATION ( #103, #29 ) ;
#103 = PERSON ( 'UNSPECIFIED', 'UNSPECIFIED', 'UNSPECIFIED', ('UNSPECIFIED'), ('UNSPECIFIED'), ('UNSPECIFIED') ) ;
#104 = CC_DESIGN_DATE_AND_TIME_ASSIGNMENT ( #161, #175, ( #33 ) ) ;
#105 = PERSON_AND_ORGANIZATION ( #103, #29 ) ;
#106 = VERTEX_POINT ( 'NONE', #3 ) ;
#107 = AXIS2_PLACEMENT_3D ( 'NONE', #2, #82, #83 ) ;
#108 = ORIENTED_EDGE ( 'NONE', *, *, #69, .F. ) ;
#109 = ORIENTED_EDGE ( 'NONE', *, *, #69, .T. ) ;
#110 = PLANE ( 'NONE',  #129 ) ;
#111 = DIRECTION ( 'NONE',  ( -1.000000000000000000, -0.000000000000000000, -0.000000000000000000 ) ) ;
#112 = DIRECTION ( 'NONE',  ( -1.000000000000000000, -0.000000000000000000, -0.000000000000000000 ) ) ;
#113 = DIRECTION ( 'NONE',  ( 1.000000000000000000, 0.000000000000000000, 0.000000000000000000 ) ) ;
#114 = CARTESIAN_POINT ( 'NONE',  ( 3.000000000000000000, 1.836970198721029589E-15, -15.00000000000000000 ) ) ;
#115 = EDGE_CURVE ( 'NONE', #106, #37, #9, .T. ) ;
#116 = AXIS2_PLACEMENT_3D ( 'NONE', #136, #27, #164 ) ;
#117 = LOCAL_TIME ( 17, 9, 58.00000000000000000, #42 ) ;
#118 = DATE_TIME_ROLE ( 'creation_date' ) ;
#119 = CARTESIAN_POINT ( 'NONE',  ( 0.000000000000000000, 0.000000000000000000, 0.000000000000000000 ) ) ;
#120 = PERSON_AND_ORGANIZATION_ROLE ( 'classification_officer' ) ;
#121 = ORIENTED_EDGE ( 'NONE', *, *, #115, .F. ) ;
#122 = ORIENTED_EDGE ( 'NONE', *, *, #30, .T. ) ;
#123 = EDGE_CURVE ( 'NONE', #37, #106, #53, .T. ) ;
#124 = CARTESIAN_POINT ( 'NONE',  ( -3.000000000000000000, 0.000000000000000000, 15.00000000000000000 ) ) ;
#125 = ORIENTED_EDGE ( 'NONE', *, *, #115, .T. ) ;
#126 = DESIGN_CONTEXT ( 'detailed design', #143, 'design' ) ;
#127 = COORDINATED_UNIVERSAL_TIME_OFFSET ( 8, 0, .AHEAD. ) ;
#128 = PERSON_AND_ORGANIZATION_ROLE ( 'creator' ) ;
#129 = AXIS2_PLACEMENT_3D ( 'NONE', #25, #96, #73 ) ;
#130 = APPROVAL_STATUS ( 'not_yet_approved' ) ;
#131 = CIRCLE ( 'NONE', #116, 15.00000000000000000 ) ;
#132 =( LENGTH_UNIT ( ) NAMED_UNIT ( * ) SI_UNIT ( .MILLI., .METRE. ) );
#133 = CARTESIAN_POINT ( 'NONE',  ( 3.000000000000000000, 0.000000000000000000, 0.000000000000000000 ) ) ;
#134 = DIRECTION ( 'NONE',  ( -1.000000000000000000, -0.000000000000000000, -0.000000000000000000 ) ) ;
#135 = CYLINDRICAL_SURFACE ( 'NONE', #145, 15.00000000000000000 ) ;
#136 = CARTESIAN_POINT ( 'NONE',  ( 3.000000000000000000, 0.000000000000000000, 0.000000000000000000 ) ) ;
#137 = PERSON_AND_ORGANIZATION_ROLE ( 'design_supplier' ) ;
#138 = MECHANICAL_CONTEXT ( 'NONE', #21, 'mechanical' ) ;
#139 = APPROVAL_PERSON_ORGANIZATION ( #101, #95, #155 ) ;
#140 = SHAPE_DEFINITION_REPRESENTATION ( #150, #157 ) ;
#141 = CALENDAR_DATE ( 2020, 22, 12 ) ;
#142 = ADVANCED_FACE ( 'NONE', ( #75 ), #4, .F. ) ;
#143 = APPLICATION_CONTEXT ( 'configuration controlled 3d designs of mechanical parts and assemblies' ) ;
#144 = ORIENTED_EDGE ( 'NONE', *, *, #30, .F. ) ;
#145 = AXIS2_PLACEMENT_3D ( 'NONE', #18, #55, #16 ) ;
#146 = FACE_OUTER_BOUND ( 'NONE', #81, .T. ) ;
#147 = FACE_OUTER_BOUND ( 'NONE', #174, .T. ) ;
#148 = CARTESIAN_POINT ( 'NONE',  ( -3.000000000000000000, 0.000000000000000000, 0.000000000000000000 ) ) ;
#149 = AXIS2_PLACEMENT_3D ( 'NONE', #57, #113, #60 ) ;
#150 = PRODUCT_DEFINITION_SHAPE ( 'NONE', 'NONE',  #76 ) ;
#151 = DIRECTION ( 'NONE',  ( -1.000000000000000000, -0.000000000000000000, -0.000000000000000000 ) ) ;
#152 = DIRECTION ( 'NONE',  ( 1.000000000000000000, 0.000000000000000000, 0.000000000000000000 ) ) ;
#153 = CALENDAR_DATE ( 2020, 22, 12 ) ;
#154 = PERSON_AND_ORGANIZATION_ROLE ( 'design_owner' ) ;
#155 = APPROVAL_ROLE ( '' ) ;
#156 = PERSON_AND_ORGANIZATION_ROLE ( 'creator' ) ;
#157 = ADVANCED_BREP_SHAPE_REPRESENTATION ( 'Q-AZHWP-25.4-355-M', ( #58, #13 ), #165 ) ;
#158 = CC_DESIGN_PERSON_AND_ORGANIZATION_ASSIGNMENT ( #77, #154, ( #64 ) ) ;
#159 = ORIENTED_EDGE ( 'NONE', *, *, #51, .F. ) ;
#160 = LOCAL_TIME ( 17, 9, 58.00000000000000000, #127 ) ;
#161 = DATE_AND_TIME ( #70, #89 ) ;
#162 = VERTEX_POINT ( 'NONE', #114 ) ;
#163 = CC_DESIGN_DATE_AND_TIME_ASSIGNMENT ( #78, #118, ( #76 ) ) ;
#164 = DIRECTION ( 'NONE',  ( 0.000000000000000000, 0.000000000000000000, 1.000000000000000000 ) ) ;
#165 =( GEOMETRIC_REPRESENTATION_CONTEXT ( 3 ) GLOBAL_UNCERTAINTY_ASSIGNED_CONTEXT ( ( #46 ) ) GLOBAL_UNIT_ASSIGNED_CONTEXT ( ( #132, #45, #5 ) ) REPRESENTATION_CONTEXT ( 'NONE', 'WORKASPACE' ) );
#166 = DIRECTION ( 'NONE',  ( 0.000000000000000000, 0.000000000000000000, 1.000000000000000000 ) ) ;
#167 = CARTESIAN_POINT ( 'NONE',  ( 3.000000000000000000, 0.000000000000000000, 15.00000000000000000 ) ) ;
#168 = AXIS2_PLACEMENT_3D ( 'NONE', #40, #112, #26 ) ;
#169 = APPLICATION_PROTOCOL_DEFINITION ( 'international standard', 'config_control_design', 1994, #143 ) ;
#170 = CIRCLE ( 'NONE', #35, 15.00000000000000000 ) ;
#171 = APPROVAL_DATE_TIME ( #88, #95 ) ;
#172 = VECTOR ( 'NONE', #134, 1000.000000000000000 ) ;
#173 = APPROVAL_ROLE ( '' ) ;
#174 = EDGE_LOOP ( 'NONE', ( #144, #159 ) ) ;
#175 = DATE_TIME_ROLE ( 'classification_date' ) ;
ENDSEC;
END-ISO-10303-21;
